                                                                        S      1
,,,7H0109_01,22HAutodesk Inventor 2016,7Hunknown,32,38,7,99,15,,1.,2,2HMG      1
M,1,0.08,15H20180903.154200,0.01,10000.,3HBET,,11,0,15H20150410.063815; G      2
     186       1                                                00000000D      1
     186             -97       1       0                               0D      2
     514       2                                                00010000D      3
     514                       1       1                               0D      4
     510       3                                                00010000D      5
     510             -97       1       1                               0D      6
     510       4                                                00010000D      7
     510             -97       1       1                               0D      8
     510       5                                                00010000D      9
     510             -97       1       1                               0D     10
     510       6                                                00010000D     11
     510             -97       1       1                               0D     12
     510       7                                                00010000D     13
     510             -97       1       1                               0D     14
     510       8                                                00010000D     15
     510             -97       1       1                               0D     16
     510       9                                                00010000D     17
     510             -97       1       1                               0D     18
     510      10                                                00010000D     19
     510             -97       1       1                               0D     20
     508      11                                                00010000D     21
     508                       1       1                               0D     22
     508      12                                                00010000D     23
     508                       2       1                               0D     24
     508      14                                                00010000D     25
     508                       2       1                               0D     26
     508      16                                                00010000D     27
     508                       1       1                               0D     28
     508      17                                                00010000D     29
     508                       2       1                               0D     30
     508      19                                                00010000D     31
     508                       1       1                               0D     32
     508      20                                                00010000D     33
     508                       1       1                               0D     34
     508      21                                                00010000D     35
     508                       2       1                               0D     36
     508      23                                                00010000D     37
     508                       1       1                               0D     38
     126      24                                                00010000D     39
     126       0               5       0                               0D     40
     126      29                                                00010000D     41
     126       0               3       0                               0D     42
     126      32                                                00010000D     43
     126       0               7       0                               0D     44
     126      39                                                00010000D     45
     126       0               5       0                               0D     46
     126      44                                                00010000D     47
     126       0               7       0                               0D     48
     126      51                                                00010000D     49
     126       0               4       0                               0D     50
     126      55                                                00010000D     51
     126       0               6       0                               0D     52
     126      61                                                00010000D     53
     126       0               8       0                               0D     54
     126      69                                                00010000D     55
     126       0               3       0                               0D     56
     126      72                                                00010000D     57
     126       0              10       0                               0D     58
     126      82                                                00010000D     59
     126       0               4       0                               0D     60
     126      86                                                00010000D     61
     126       0              10       0                               0D     62
     126      96                                                00010000D     63
     126       0               6       0                               0D     64
     126     102                                                00010000D     65
     126       0               3       0                               0D     66
     126     105                                                00010000D     67
     126       0               5       0                               0D     68
     126     110                                                00010000D     69
     126       0               6       0                               0D     70
     126     116                                                00010000D     71
     126       0               3       0                               0D     72
     126     119                                                00010000D     73
     126       0               5       0                               0D     74
     128     124                                                00010000D     75
     128       0     -97      15       0                               0D     76
     128     139                                                00010000D     77
     128       0     -97      18       0                               0D     78
     128     157                                                00010000D     79
     128       0     -97      14       0                               0D     80
     128     171                                                00010000D     81
     128       0     -97      19       0                               0D     82
     128     190                                                00010000D     83
     128       0     -97      13       0                               0D     84
     128     203                                                00010000D     85
     128       0     -97       3       0                               0D     86
     128     206                                                00010000D     87
     128       0     -97      18       0                               0D     88
     128     224                                                00010000D     89
     128       0     -97       3       0                               0D     90
     502     227                                                00010000D     91
     502                       5       1                               0D     92
     504     232                                                00010001D     93
     504                       5       1                               0D     94
     406     237                                                00000000D     95
     406                       1      15                               0D     96
     314     238                                                00000200D     97
     314                       1       0                               0D     98
186,3,1,0,0,1,95;                                                      1P      1
514,8,5,1,7,1,9,1,11,1,13,1,15,1,17,1,19,1;                            3P      2
510,75,1,1,21;                                                         5P      3
510,77,1,1,23;                                                         7P      4
510,79,1,1,25;                                                         9P      5
510,81,1,1,27;                                                        11P      6
510,83,1,1,29;                                                        13P      7
510,85,2,1,31,33;                                                     15P      8
510,87,1,1,35;                                                        17P      9
510,89,1,1,37;                                                        19P     10
508,4,0,93,1,1,0,0,93,2,1,0,0,93,2,0,0,0,93,3,1,0;                    21P     11
508,6,0,93,4,0,0,0,93,5,0,0,0,93,6,1,0,0,93,7,0,0,0,93,8,0,0,0,       23P     12
93,6,0,0;                                                             23P     13
508,6,0,93,7,1,0,0,93,9,1,0,0,93,1,0,0,0,93,3,0,0,0,93,9,0,0,0,       25P     14
93,8,1,0;                                                             25P     15
508,4,0,93,10,1,0,0,93,11,1,0,0,93,12,1,0,0,93,11,0,0;                27P     16
508,5,0,93,13,0,0,0,93,14,1,0,0,93,12,0,0,0,93,14,0,0,0,93,15,0,      29P     17
0;                                                                    29P     18
508,1,0,93,10,0,0;                                                    31P     19
508,2,0,93,4,1,0,0,93,5,1,0;                                          33P     20
508,6,0,93,16,1,0,0,93,17,1,0,0,93,15,1,0,0,93,13,1,0,0,93,17,0,      35P     21
0,0,93,18,1,0;                                                        35P     22
508,2,0,93,16,0,0,0,93,18,0,0;                                        37P     23
126,4,2,0,0,0,0,0.,0.,0.,1.5707963267949,1.5707963267949,             39P     24
3.14159265358979,3.14159265358979,3.14159265358979,1.,                39P     25
0.707106781186547,1.,0.707106781186548,1.,-1.621,0.,10.,-1.621,       39P     26
1.621,10.,-9.9257623070893D-17,1.621,10.,1.621,1.621,10.,1.621,       39P     27
1.98515246141786D-16,10.,0.,3.14159265358979,0.,0.,0.;                39P     28
126,1,1,0,0,1,0,-1.16663339721533,-1.16663339721533,                  41P     29
1.16663339721533,1.16663339721533,1.,1.,1.621,0.,10.,0.,0.,           41P     30
10.9739950634437,-1.16663339721533,1.16663339721533,0.,0.,0.;         41P     31
126,4,2,0,0,0,0,3.14159265358979,3.14159265358979,                    43P     32
3.14159265358979,4.71238898038469,4.71238898038469,                   43P     33
6.28318530717959,6.28318530717959,6.28318530717959,1.,                43P     34
0.707106781186548,1.,0.707106781186547,1.,1.621,                      43P     35
1.98515246141786D-16,10.,1.621,-1.621,10.,2.97772869212679D-16,       43P     36
-1.621,10.,-1.621,-1.621,10.,-1.621,-3.97030492283572D-16,10.,        43P     37
3.14159265358979,6.28318530717959,0.,0.,0.;                           43P     38
126,4,2,0,0,0,0,0.,0.,0.,1.5707963267949,1.5707963267949,             45P     39
3.14159265358979,3.14159265358979,3.14159265358979,1.,                45P     40
0.707106781186548,1.,0.707106781186548,1.,-2.,0.,0.,-2.,-2.,0.,       45P     41
-1.22464679914735D-16,-2.,0.,2.,-2.,0.,2.,-2.44929359829471D-16,      45P     42
0.,0.,3.14159265358979,0.,0.,0.;                                      45P     43
126,4,2,0,0,0,0,3.14159265358979,3.14159265358979,                    47P     44
3.14159265358979,4.71238898038469,4.71238898038469,                   47P     45
6.28318530717959,6.28318530717959,6.28318530717959,1.,                47P     46
0.707106781186548,1.,0.707106781186547,1.,2.,                         47P     47
-2.44929359829471D-16,0.,2.,2.,0.,3.67394039744206D-16,2.,0.,         47P     48
-2.,2.,0.,-2.,4.89858719658941D-16,0.,3.14159265358979,               47P     49
6.28318530717959,0.,0.,0.;                                            47P     50
126,1,1,0,0,1,0,-0.148021800646066,-0.148021800646066,                49P     51
0.148021800646066,0.148021800646066,1.,1.,2.,0.,                      49P     52
-1.38777878078145D-16,1.621,0.,0.379,-0.148021800646066,              49P     53
0.148021800646066,0.,0.,0.;                                           49P     54
126,4,2,0,0,0,0,0.,0.,0.,1.5707963267949,1.5707963267949,             51P     55
3.14159265358979,3.14159265358979,3.14159265358979,1.,                51P     56
0.707106781186547,1.,0.707106781186548,1.,-1.621,0.,0.379,            51P     57
-1.621,1.621,0.379,-9.9257623070893D-17,1.621,0.379,1.621,1.621,      51P     58
0.379,1.621,1.98515246141786D-16,0.379,0.,3.14159265358979,0.,        51P     59
0.,0.;                                                                51P     60
126,4,2,0,0,0,0,3.14159265358979,3.14159265358979,                    53P     61
3.14159265358979,4.71238898038469,4.71238898038469,                   53P     62
6.28318530717959,6.28318530717959,6.28318530717959,1.,                53P     63
0.707106781186548,1.,0.707106781186547,1.,1.621,                      53P     64
1.98515246141786D-16,0.379,1.621,-1.621,0.379,                        53P     65
2.97772869212679D-16,-1.621,0.379,-1.621,-1.621,0.379,-1.621,         53P     66
-3.97030492283572D-16,0.379,3.14159265358979,6.28318530717959,        53P     67
0.,0.,0.;                                                             53P     68
126,1,1,0,0,1,0,-2.85070943861814,-2.85070943861814,                  55P     69
3.08451573103023,3.08451573103023,1.,1.,1.621,0.,0.379,1.621,0.,      55P     70
10.,-2.85070943861814,3.08451573103023,0.,0.,0.;                      55P     71
126,8,2,0,1,0,0,-3.14159265358979,-3.14159265358979,                  57P     72
-3.14159265358979,-1.5707963267949,-1.5707963267949,0.,0.,            57P     73
1.5707963267949,1.5707963267949,3.14159265358979,                     57P     74
3.14159265358979,3.14159265358979,1.,0.707106781186548,1.,            57P     75
0.707106781186547,1.,0.707106781186547,1.,0.707106781186548,1.,       57P     76
6.25,7.65404249467096D-16,0.,6.25,6.25,0.,-3.82702124733548D-16,      57P     77
6.25,0.,-6.25,6.25,0.,-6.25,0.,0.,-6.25,-6.25,0.,                     57P     78
-3.82702124733548D-16,-6.25,0.,6.25,-6.25,0.,6.25,                    57P     79
-7.65404249467096D-16,0.,-3.14159265358979,3.14159265358979,0.,       57P     80
0.,0.;                                                                57P     81
126,2,2,0,0,0,0,-1.5707963267949,-1.5707963267949,                    59P     82
-1.5707963267949,0.,0.,0.,1.,0.707106781186547,1.,6.25,0.,0.,         59P     83
8.75,0.,2.77555756156289D-16,8.75,0.,2.5,-1.5707963267949,0.,0.,      59P     84
0.,0.;                                                                59P     85
126,8,2,0,1,0,0,-3.14159265358979,-3.14159265358979,                  61P     86
-3.14159265358979,-1.5707963267949,-1.5707963267949,0.,0.,            61P     87
1.5707963267949,1.5707963267949,3.14159265358979,                     61P     88
3.14159265358979,3.14159265358979,1.,0.707106781186547,1.,            61P     89
0.707106781186547,1.,0.707106781186547,1.,0.707106781186547,1.,       61P     90
8.75,-1.07156594925393D-15,2.5,8.75,-8.75,2.5,                        61P     91
-5.35782974626967D-16,-8.75,2.5,-8.75,-8.75,2.5,-8.75,0.,2.5,         61P     92
-8.75,8.75,2.5,-5.35782974626967D-16,8.75,2.5,8.75,8.75,2.5,          61P     93
8.75,1.07156594925393D-15,2.5,-3.14159265358979,                      61P     94
3.14159265358979,0.,0.,0.;                                            61P     95
126,4,2,0,0,0,0,-3.14159265358979,-3.14159265358979,                  63P     96
-3.14159265358979,-1.5707963267949,-1.5707963267949,0.,0.,0.,1.,      63P     97
0.707106781186547,1.,0.707106781186547,1.,8.75,                       63P     98
1.07156594925393D-15,27.,8.75,8.75,27.,-5.35782974626967D-16,         63P     99
8.75,27.,-8.75,8.75,27.,-8.75,0.,27.,-3.14159265358979,0.,0.,0.,      63P    100
0.;                                                                   63P    101
126,1,1,0,0,1,0,-3.08571428571429,-3.08571428571429,                  65P    102
-0.285714285714286,-0.285714285714286,1.,1.,8.75,0.,27.,8.75,0.,      65P    103
2.5,-3.08571428571429,-0.285714285714286,0.,0.,0.;                    65P    104
126,4,2,0,0,0,0,0.,0.,0.,1.5707963267949,1.5707963267949,             67P    105
3.14159265358979,3.14159265358979,3.14159265358979,1.,                67P    106
0.707106781186547,1.,0.707106781186547,1.,-8.75,0.,27.,-8.75,         67P    107
-8.75,27.,-5.35782974626967D-16,-8.75,27.,8.75,-8.75,27.,8.75,        67P    108
-1.07156594925393D-15,27.,0.,3.14159265358979,0.,0.,0.;               67P    109
126,4,2,0,0,0,0,-3.14159265358979,-3.14159265358979,                  69P    110
-3.14159265358979,-1.5707963267949,-1.5707963267949,0.,0.,0.,1.,      69P    111
0.707106781186547,1.,0.707106781186547,1.,7.75,                       69P    112
-9.49101269339199D-16,28.,7.75,-7.75,28.,-4.74550634669599D-16,       69P    113
-7.75,28.,-7.75,-7.75,28.,-7.75,0.,28.,-3.14159265358979,0.,0.,       69P    114
0.,0.;                                                                69P    115
126,2,2,0,0,0,0,-1.5707963267949,-1.5707963267949,                    71P    116
-1.5707963267949,0.,0.,0.,1.,0.707106781186542,1.,-7.75,0.,28.,       71P    117
-8.75,0.,28.,-8.75,0.,27.,-1.5707963267949,0.,0.,0.,0.;               71P    118
126,4,2,0,0,0,0,0.,0.,0.,1.5707963267949,1.5707963267949,             73P    119
3.14159265358979,3.14159265358979,3.14159265358979,1.,                73P    120
0.707106781186547,1.,0.707106781186547,1.,-7.75,0.,28.,-7.75,         73P    121
7.75,28.,-4.74550634669599D-16,7.75,28.,7.75,7.75,28.,7.75,           73P    122
9.49101269339199D-16,28.,0.,3.14159265358979,0.,0.,0.;                73P    123
128,1,8,1,2,0,1,0,0,1,-1.16663339721533,-1.16663339721533,            75P    124
1.16663339721533,1.16663339721533,-3.14159265358979,                  75P    125
-3.14159265358979,-3.14159265358979,-1.5707963267949,                 75P    126
-1.5707963267949,0.,0.,1.5707963267949,1.5707963267949,               75P    127
3.14159265358979,3.14159265358979,3.14159265358979,1.,1.,             75P    128
0.707106781186548,0.707106781186548,1.,1.,0.707106781186548,          75P    129
0.707106781186548,1.,1.,0.707106781186548,0.707106781186548,1.,       75P    130
1.,0.707106781186548,0.707106781186548,1.,1.,0.,0.,                   75P    131
10.9739950634437,1.621,0.,10.,0.,0.,10.9739950634437,1.621,           75P    132
-1.621,10.,0.,0.,10.9739950634437,0.,-1.621,10.,0.,0.,                75P    133
10.9739950634437,-1.621,-1.621,10.,0.,0.,10.9739950634437,            75P    134
-1.621,0.,10.,0.,0.,10.9739950634437,-1.621,1.621,10.,0.,0.,          75P    135
10.9739950634437,0.,1.621,10.,0.,0.,10.9739950634437,1.621,           75P    136
1.621,10.,0.,0.,10.9739950634437,1.621,0.,10.,-1.16663339721533,      75P    137
1.16663339721533,-3.14159265358979,3.14159265358979;                  75P    138
128,1,8,1,2,0,1,0,0,1,-0.148021800646066,-0.148021800646066,          77P    139
0.148021800646066,0.148021800646066,-3.14159265358979,                77P    140
-3.14159265358979,-3.14159265358979,-1.5707963267949,                 77P    141
-1.5707963267949,0.,0.,1.5707963267949,1.5707963267949,               77P    142
3.14159265358979,3.14159265358979,3.14159265358979,1.,1.,             77P    143
0.707106781186548,0.707106781186548,1.,1.,0.707106781186548,          77P    144
0.707106781186548,1.,1.,0.707106781186548,0.707106781186548,1.,       77P    145
1.,0.707106781186548,0.707106781186548,1.,1.,1.621,0.,0.379,2.,       77P    146
0.,-1.38777878078145D-16,1.621,-1.621,0.379,2.,-2.,                   77P    147
-1.38777878078145D-16,0.,-1.621,0.379,0.,-2.,                         77P    148
-1.38777878078145D-16,-1.621,-1.621,0.379,-2.,-2.,                    77P    149
-1.38777878078145D-16,-1.621,0.,0.379,-2.,0.,                         77P    150
-1.38777878078145D-16,-1.621,1.621,0.379,-2.,2.,                      77P    151
-1.38777878078145D-16,0.,1.621,0.379,0.,2.,                           77P    152
-1.38777878078145D-16,1.621,1.621,0.379,2.,2.,                        77P    153
-1.38777878078145D-16,1.621,0.,0.379,2.,0.,                           77P    154
-1.38777878078145D-16,-0.148021800646066,0.148021800646066,           77P    155
-3.14159265358979,3.14159265358979;                                   77P    156
128,1,8,1,2,0,1,0,0,1,-2.85070943861814,-2.85070943861814,            79P    157
3.08451573103023,3.08451573103023,-3.14159265358979,                  79P    158
-3.14159265358979,-3.14159265358979,-1.5707963267949,                 79P    159
-1.5707963267949,0.,0.,1.5707963267949,1.5707963267949,               79P    160
3.14159265358979,3.14159265358979,3.14159265358979,1.,1.,             79P    161
0.707106781186548,0.707106781186548,1.,1.,0.707106781186548,          79P    162
0.707106781186548,1.,1.,0.707106781186548,0.707106781186548,1.,       79P    163
1.,0.707106781186548,0.707106781186548,1.,1.,1.621,0.,10.,1.621,      79P    164
0.,0.379,1.621,-1.621,10.,1.621,-1.621,0.379,0.,-1.621,10.,0.,        79P    165
-1.621,0.379,-1.621,-1.621,10.,-1.621,-1.621,0.379,-1.621,0.,         79P    166
10.,-1.621,0.,0.379,-1.621,1.621,10.,-1.621,1.621,0.379,0.,           79P    167
1.621,10.,0.,1.621,0.379,1.621,1.621,10.,1.621,1.621,0.379,           79P    168
1.621,0.,10.,1.621,0.,0.379,-2.85070943861814,3.08451573103023,       79P    169
-3.14159265358979,3.14159265358979;                                   79P    170
128,2,8,2,2,0,1,0,0,1,0.,0.,0.,1.5707963267949,1.5707963267949,       81P    171
1.5707963267949,-3.14159265358979,-3.14159265358979,                  81P    172
-3.14159265358979,-1.5707963267949,-1.5707963267949,0.,0.,            81P    173
1.5707963267949,1.5707963267949,3.14159265358979,                     81P    174
3.14159265358979,3.14159265358979,1.,0.707106781186547,1.,            81P    175
0.707106781186548,0.5,0.707106781186548,1.,0.707106781186547,1.,      81P    176
0.707106781186548,0.5,0.707106781186548,1.,0.707106781186547,1.,      81P    177
0.707106781186548,0.5,0.707106781186548,1.,0.707106781186547,1.,      81P    178
0.707106781186548,0.5,0.707106781186548,1.,0.707106781186547,1.,      81P    179
6.25,0.,0.,8.75,0.,3.39793209287724D-16,8.75,0.,2.5,6.25,-6.25,       81P    180
0.,8.75,-8.75,3.39793209287724D-16,8.75,-8.75,2.5,0.,-6.25,0.,        81P    181
0.,-8.75,2.77555756156289D-16,0.,-8.75,2.5,-6.25,-6.25,0.,-8.75,      81P    182
-8.75,2.15318303024854D-16,-8.75,-8.75,2.5,-6.25,0.,0.,-8.75,0.,      81P    183
2.15318303024854D-16,-8.75,0.,2.5,-6.25,6.25,0.,-8.75,8.75,           81P    184
2.15318303024854D-16,-8.75,8.75,2.5,0.,6.25,0.,0.,8.75,               81P    185
2.77555756156289D-16,0.,8.75,2.5,6.25,6.25,0.,8.75,8.75,              81P    186
3.39793209287724D-16,8.75,8.75,2.5,6.25,0.,0.,8.75,0.,                81P    187
3.39793209287724D-16,8.75,0.,2.5,0.,1.5707963267949,                  81P    188
-3.14159265358979,3.14159265358979;                                   81P    189
128,1,8,1,2,0,1,0,0,1,0.285714285714286,0.285714285714286,            83P    190
3.08571428571429,3.08571428571429,-3.14159265358979,                  83P    191
-3.14159265358979,-3.14159265358979,-1.5707963267949,                 83P    192
-1.5707963267949,0.,0.,1.5707963267949,1.5707963267949,               83P    193
3.14159265358979,3.14159265358979,3.14159265358979,1.,1.,             83P    194
0.707106781186548,0.707106781186548,1.,1.,0.707106781186548,          83P    195
0.707106781186548,1.,1.,0.707106781186548,0.707106781186548,1.,       83P    196
1.,0.707106781186548,0.707106781186548,1.,1.,8.75,0.,27.,8.75,        83P    197
0.,2.5,8.75,8.75,27.,8.75,8.75,2.5,0.,8.75,27.,0.,8.75,2.5,           83P    198
-8.75,8.75,27.,-8.75,8.75,2.5,-8.75,0.,27.,-8.75,0.,2.5,-8.75,        83P    199
-8.75,27.,-8.75,-8.75,2.5,0.,-8.75,27.,0.,-8.75,2.5,8.75,-8.75,       83P    200
27.,8.75,-8.75,2.5,8.75,0.,27.,8.75,0.,2.5,0.285714285714286,         83P    201
3.08571428571429,-3.14159265358979,3.14159265358979;                  83P    202
128,1,1,1,1,0,0,1,0,0,-0.625,-0.625,0.625,0.625,-0.625,-0.625,        85P    203
0.625,0.625,1.,1.,1.,1.,6.25,-6.25,0.,-6.25,-6.25,0.,6.25,6.25,       85P    204
0.,-6.25,6.25,0.,-0.625,0.625,-0.625,0.625;                           85P    205
128,2,8,2,2,0,1,0,0,1,0.,0.,0.,1.5707963267949,1.5707963267949,       87P    206
1.5707963267949,-3.14159265358979,-3.14159265358979,                  87P    207
-3.14159265358979,-1.5707963267949,-1.5707963267949,0.,0.,            87P    208
1.5707963267949,1.5707963267949,3.14159265358979,                     87P    209
3.14159265358979,3.14159265358979,1.,0.707106781186542,1.,            87P    210
0.707106781186548,0.499999999999996,0.707106781186548,1.,             87P    211
0.707106781186542,1.,0.707106781186548,0.499999999999996,             87P    212
0.707106781186548,1.,0.707106781186542,1.,0.707106781186548,          87P    213
0.499999999999996,0.707106781186548,1.,0.707106781186542,1.,          87P    214
0.707106781186548,0.499999999999996,0.707106781186548,1.,             87P    215
0.707106781186542,1.,-7.75,0.,28.,-8.75,0.,28.,-8.75,0.,27.,          87P    216
-7.75,-7.75,28.,-8.75,-8.75,28.,-8.75,-8.75,27.,0.,-7.75,28.,0.,      87P    217
-8.75,28.,0.,-8.75,27.,7.75,-7.75,28.,8.75,-8.75,28.,8.75,-8.75,      87P    218
27.,7.75,0.,28.,8.75,0.,28.,8.75,0.,27.,7.75,7.75,28.,8.75,8.75,      87P    219
28.,8.75,8.75,27.,0.,7.75,28.,0.,8.75,28.,0.,8.75,27.,-7.75,          87P    220
7.75,28.,-8.75,8.75,28.,-8.75,8.75,27.,-7.75,0.,28.,-8.75,0.,         87P    221
28.,-8.75,0.,27.,0.,1.5707963267949,-3.14159265358979,                87P    222
3.14159265358979;                                                     87P    223
128,1,1,1,1,0,0,1,0,0,-0.775,-0.775,0.775,0.775,-0.775,-0.775,        89P    224
0.775,0.775,1.,1.,1.,1.,-7.75,-7.75,28.,7.75,-7.75,28.,-7.75,         89P    225
7.75,28.,7.75,7.75,28.,-0.775,0.775,-0.775,0.775;                     89P    226
502,13,-1.621,0.,10.,1.621,0.,10.,0.,0.,10.9739950634437,-2.,0.,      91P    227
0.,2.,0.,-1.38777878078145D-16,1.621,0.,0.379,-1.621,0.,0.379,        91P    228
6.25,7.65404249467096D-16,0.,8.75,-1.07156594925393D-15,2.5,          91P    229
8.75,1.07156594925393D-15,27.,-8.75,0.,27.,7.75,                      91P    230
-9.49101269339199D-16,28.,-7.75,0.,28.;                               91P    231
504,18,39,91,1,91,2,41,91,2,91,3,43,91,2,91,1,45,91,4,91,5,47,        93P    232
91,5,91,4,49,91,5,91,6,51,91,7,91,6,53,91,6,91,7,55,91,6,91,2,        93P    233
57,91,8,91,8,59,91,8,91,9,61,91,9,91,9,63,91,10,91,11,65,91,10,       93P    234
91,9,67,91,11,91,10,69,91,12,91,13,71,91,13,91,11,73,91,13,91,        93P    235
12;                                                                   93P    236
406,1,6HSolid2;                                                       95P    237
314,74.9019607843137,74.9019607843137,74.9019607843137,;              97P    238
S      1G      2D     98P    238                                        T      1
